  0
SECTION
  2
HEADER
  9
$ACADVER
  1
AC1009
  9
$INSBASE
 10
0.0
 20
0.0
 30
0.0
  9
$EXTMIN
 10
-90.005492744973708
 20
-137.6219136395554
 30
-0.0015258207003583
  9
$EXTMAX
 10
90.005493583164082
 20
130.00815075700859
 30
0.0000000349246037
  9
$LIMMIN
 10
0.0
 20
0.0
  9
$LIMMAX
 10
0.0
 20
0.0
  9
$ORTHOMODE
 70
     0
  9
$REGENMODE
 70
     1
  9
$FILLMODE
 70
     1
  9
$QTEXTMODE
 70
     0
  9
$MIRRTEXT
 70
     1
  9
$DRAGMODE
 70
     2
  9
$LTSCALE
 40
5.0800000000000001
  9
$OSMODE
 70
   231
  9
$ATTMODE
 70
     1
  9
$TEXTSIZE
 40
0.0
  9
$TRACEWID
 40
1.0
  9
$TEXTSTYLE
  7
STANDARD
  9
$CLAYER
  8
DATA
  9
$CELTYPE
  6
BYLAYER
  9
$CECOLOR
 62
   256
  9
$DIMSCALE
 40
1.0
  9
$DIMASZ
 40
0.18
  9
$DIMEXO
 40
0.0625
  9
$DIMDLI
 40
0.38
  9
$DIMRND
 40
0.0
  9
$DIMDLE
 40
0.0
  9
$DIMEXE
 40
0.18
  9
$DIMTP
 40
0.0
  9
$DIMTM
 40
0.0
  9
$DIMTXT
 40
0.18
  9
$DIMCEN
 40
0.09
  9
$DIMTSZ
 40
0.0
  9
$DIMTOL
 70
     0
  9
$DIMLIM
 70
     0
  9
$DIMTIH
 70
     1
  9
$DIMTOH
 70
     1
  9
$DIMSE1
 70
     0
  9
$DIMSE2
 70
     0
  9
$DIMTAD
 70
     0
  9
$DIMZIN
 70
     0
  9
$DIMBLK
  1

  9
$DIMASO
 70
     1
  9
$DIMSHO
 70
     1
  9
$DIMPOST
  1

  9
$DIMAPOST
  1

  9
$DIMALT
 70
     0
  9
$DIMALTD
 70
     2
  9
$DIMALTF
 40
25.399999999999999
  9
$DIMLFAC
 40
1.0
  9
$DIMTOFL
 70
     0
  9
$DIMTVP
 40
0.0
  9
$DIMTIX
 70
     0
  9
$DIMSOXD
 70
     0
  9
$DIMSAH
 70
     0
  9
$DIMBLK1
  1

  9
$DIMBLK2
  1

  9
$DIMSTYLE
  2
STANDARD
  9
$DIMCLRD
 70
     0
  9
$DIMCLRE
 70
     0
  9
$DIMCLRT
 70
     0
  9
$DIMTFAC
 40
1.0
  9
$DIMGAP
 40
0.09
  9
$LUNITS
 70
     2
  9
$LUPREC
 70
     4
  9
$SKETCHINC
 40
0.1
  9
$FILLETRAD
 40
0.0
  9
$AUNITS
 70
     0
  9
$AUPREC
 70
     0
  9
$MENU
  1
acad
  9
$ELEVATION
 40
0.0
  9
$PELEVATION
 40
0.0
  9
$THICKNESS
 40
0.0
  9
$LIMCHECK
 70
     0
  9
$BLIPMODE
 70
     0
  9
$CHAMFERA
 40
0.0
  9
$CHAMFERB
 40
0.0
  9
$SKPOLY
 70
     0
  9
$TDCREATE
 40
2456279.4997222228
  9
$TDUPDATE
 40
2456279.505068033
  9
$TDINDWG
 40
0.000373125
  9
$TDUSRTIMER
 40
0.0003730787
  9
$USRTIMER
 70
     1
  9
$ANGBASE
 50
0.0
  9
$ANGDIR
 70
     0
  9
$PDMODE
 70
     1
  9
$PDSIZE
 40
-2.0
  9
$PLINEWID
 40
0.0
  9
$COORDS
 70
     2
  9
$SPLFRAME
 70
     0
  9
$SPLINETYPE
 70
     6
  9
$SPLINESEGS
 70
     8
  9
$ATTDIA
 70
     0
  9
$ATTREQ
 70
     1
  9
$HANDLING
 70
     1
  9
$HANDSEED
  5
2CA
  9
$SURFTAB1
 70
     6
  9
$SURFTAB2
 70
     6
  9
$SURFTYPE
 70
     6
  9
$SURFU
 70
     6
  9
$SURFV
 70
     6
  9
$UCSNAME
  2

  9
$UCSORG
 10
0.0
 20
0.0
 30
0.0
  9
$UCSXDIR
 10
1.0
 20
0.0
 30
0.0
  9
$UCSYDIR
 10
0.0
 20
1.0
 30
0.0
  9
$PUCSNAME
  2

  9
$PUCSORG
 10
0.0
 20
0.0
 30
0.0
  9
$PUCSXDIR
 10
1.0
 20
0.0
 30
0.0
  9
$PUCSYDIR
 10
0.0
 20
1.0
 30
0.0
  9
$USERI1
 70
     0
  9
$USERI2
 70
     0
  9
$USERI3
 70
     0
  9
$USERI4
 70
     0
  9
$USERI5
 70
     0
  9
$USERR1
 40
0.0
  9
$USERR2
 40
0.0
  9
$USERR3
 40
0.0
  9
$USERR4
 40
0.0
  9
$USERR5
 40
0.0
  9
$WORLDVIEW
 70
     1
  9
$SHADEDGE
 70
     3
  9
$SHADEDIF
 70
    70
  9
$TILEMODE
 70
     1
  9
$MAXACTVP
 70
    64
  9
$PLIMCHECK
 70
     0
  9
$PEXTMIN
 10
1.0000000000000000E+020
 20
1.0000000000000000E+020
 30
1.0000000000000000E+020
  9
$PEXTMAX
 10
-1.0000000000000000E+020
 20
-1.0000000000000000E+020
 30
-1.0000000000000000E+020
  9
$PLIMMIN
 10
0.0
 20
0.0
  9
$PLIMMAX
 10
12.0
 20
9.0
  9
$UNITMODE
 70
     0
  9
$VISRETAIN
 70
     0
  9
$PLINEGEN
 70
     1
  9
$PSLTSCALE
 70
     0
  0
ENDSEC
  0
SECTION
  2
TABLES
  0
TABLE
  2
VPORT
 70
     1
  0
VPORT
  2
*ACTIVE
 70
     0
 10
0.0
 20
0.0
 11
1.0
 21
1.0
 12
0.000000419095187
 22
-3.80688144127339
 13
0.0
 23
0.0
 14
1.0
 24
1.0
 15
0.0
 25
0.0
 16
0.0
 26
0.0
 36
1.0
 17
0.0
 27
0.0
 37
0.0
 40
270.21170488913532
 41
2.5684380032206109
 42
50.0
 43
0.0
 44
0.0
 50
0.0
 51
0.0
 71
     0
 72
  2000
 73
     1
 74
     1
 75
     0
 76
     0
 77
     0
 78
     0
  0
ENDTAB
  0
TABLE
  2
LTYPE
 70
    12
  0
LTYPE
  2
CONTINUOUS
 70
     0
  3
Solid line
 72
    65
 73
     0
 40
0.0
  0
LTYPE
  2
PHANTOM2
 70
     0
  3
___ _ _ ___ _ _ ___ _ _ ___ _ _
 72
    65
 73
     6
 40
1.25
 49
0.625
 49
-0.125
 49
0.125
 49
-0.125
 49
0.125
 49
-0.125
  0
ENDTAB
  0
TABLE
  2
LAYER
 70
     5
  0
LAYER
  2
0
 70
     0
 62
     7
  6
CONTINUOUS
  0
LAYER
  2
DATA
 70
     0
 62
     7
  6
CONTINUOUS
  0
LAYER
  2
HIBINO-BASE
 70
     0
 62
     7
  6
CONTINUOUS
  0
LAYER
  2
SPEC
 70
     0
 62
     7
  6
CONTINUOUS
  0
LAYER
  2
DIMNSIONS
 70
     0
 62
     7
  6
CONTINUOUS
  0
ENDTAB
  0
TABLE
  2
STYLE
 70
     3
  0
STYLE
  2
STANDARD
 70
     0
 40
0.0
 41
1.0
 50
0.0
 71
     0
 42
0.0
  3
txt
  4
BIGFONT.SHX
  0
ENDTAB
  0
TABLE
  2
VIEW
 70
     0
  0
ENDTAB
  0
TABLE
  2
UCS
 70
     0
  0
ENDTAB
  0
TABLE
  2
APPID
 70
     4
  0
APPID
  2
ACAD
 70
     0
  0
APPID
  2
ACADANNOTATIVE
 70
     0
  0
APPID
  2
ACAD_NAV_VCDISPLAY
 70
     0
  0
APPID
  2
ACAD_MLEADERVER
 70
     0
  0
ENDTAB
  0
TABLE
  2
DIMSTYLE
 70
     2
  0
DIMSTYLE
  2
STANDARD
 70
     0
  3

  4

  5

  6

  7

 40
1.0
 41
0.18
 42
0.0625
 43
0.38
 44
0.18
 45
0.0
 46
0.0
 47
0.0
 48
0.0
140
0.18
141
0.09
142
0.0
143
25.399999999999999
144
1.0
145
0.0
146
1.0
147
0.09
 71
     0
 72
     0
 73
     1
 74
     1
 75
     0
 76
     0
 77
     0
 78
     0
170
     0
171
     2
172
     0
173
     0
174
     0
175
     0
176
     0
177
     0
178
     0
  0
ENDTAB
  0
ENDSEC
  0
SECTION
  2
BLOCKS
  0
BLOCK
  8
0
  2
$MODEL_SPACE
 70
     0
 10
0.0
 20
0.0
 30
0.0
  3
$MODEL_SPACE
  1

  0
ENDBLK
  5
1BE
  8
0
  0
BLOCK
 67
     1
  8
0
  2
$PAPER_SPACE
 70
     0
 10
0.0
 20
0.0
 30
0.0
  3
$PAPER_SPACE
  1

  0
ENDBLK
  5
1BA
 67
     1
  8
0
  0
ENDSEC
  0
SECTION
  2
ENTITIES
  0
LINE
  5
2C
  8
HIBINO-BASE
  6
CONTINUOUS
 62
     7
 10
-89.999999999999986
 20
130.0
 30
0.0
 11
89.999999999999986
 21
130.0
 31
0.0
  0
LINE
  5
2D
  8
HIBINO-BASE
  6
CONTINUOUS
 62
     7
 10
89.999999999999986
 20
-130.0
 30
0.0
 11
-89.999999999999986
 21
-130.0
 31
0.0
  0
LINE
  5
2E
  8
HIBINO-BASE
  6
CONTINUOUS
 62
     7
 10
-89.999999999999986
 20
-130.0
 30
0.0
 11
-89.999999999999986
 21
130.0
 31
0.0
  0
LINE
  5
2F
  8
HIBINO-BASE
  6
CONTINUOUS
 62
     7
 10
89.999999999999986
 20
130.0
 30
0.0
 11
89.999999999999986
 21
-130.0
 31
0.0
  0
LINE
  5
30
  8
HIBINO-BASE
  6
CONTINUOUS
 62
     7
 10
0.0000000000000071
 20
-107.4999999999999
 30
0.0
 11
89.999999999999986
 21
-107.4999999999999
 31
0.0
  0
LINE
  5
31
  8
HIBINO-BASE
  6
CONTINUOUS
 62
     7
 10
0.0000000000000071
 20
-130.0
 30
0.0
 11
0.0000000000000071
 21
-107.4999999999999
 31
0.0
  0
TEXT
  5
32
  8
HIBINO-BASE
 62
     7
 10
0.9000000000000126
 20
-110.0086933333333
 30
0.0
 40
1.6288411458333329
  1
NOTE
 41
0.7
 11
0.9000000000000127
 21
-108.37985218749991
 31
0.0
 73
     3
  0
LINE
  5
33
  8
HIBINO-BASE
  6
CONTINUOUS
 62
     7
 10
35.000000000000021
 20
-130.0
 30
0.0
 11
35.000000000000021
 21
-107.4999999999999
 31
0.0
  0
TEXT
  5
34
  8
HIBINO-BASE
 62
     7
 10
35.899999999999999
 20
-110.0086933333333
 30
0.0
 40
1.6288411458333329
  1
TITLE
 41
0.7
 11
35.899999999999999
 21
-108.37985218749991
 31
0.0
 73
     3
  0
LINE
  5
35
  8
HIBINO-BASE
  6
CONTINUOUS
 62
     7
 10
0.0000000000000071
 20
-119.9999999999999
 30
0.0
 11
89.999999999999986
 21
-119.9999999999999
 31
0.0
  0
TEXT
  5
36
  8
HIBINO-BASE
 62
     7
 10
48.399999999999991
 20
-122.4523733333333
 30
0.0
 40
1.6288411458333329
  1
DRAWN
 41
0.7
 11
48.399999999999991
 21
-120.82353218749989
 31
0.0
 73
     3
  0
TEXT
  5
37
  8
HIBINO-BASE
 62
     7
 10
23.399999999999999
 20
-122.4523733333333
 30
0.0
 40
1.6288411458333329
  1
DATE
 41
0.7
 11
23.399999999999999
 21
-120.82353218749989
 31
0.0
 73
     3
  0
TEXT
  5
38
  8
HIBINO-BASE
 62
     7
 10
13.4
 20
-122.4523733333333
 30
0.0
 40
1.6288411458333329
  1
SCALE
 41
0.7
 11
13.4
 21
-120.82353218749989
 31
0.0
 73
     3
  0
TEXT
  5
39
  8
HIBINO-BASE
 62
     7
 10
35.899999999999999
 20
-122.4523733333333
 30
0.0
 40
1.6288411458333329
  1
DESIGN
 41
0.7
 11
35.899999999999999
 21
-120.82353218749989
 31
0.0
 73
     3
  0
TEXT
  5
3A
  8
HIBINO-BASE
 62
     7
 10
73.399999999999977
 20
-122.4523733333333
 30
0.0
 40
1.6288411458333329
  1
DRAWING NO.
 41
0.7
 11
73.399999999999977
 21
-120.82353218749989
 31
0.0
 73
     3
  0
TEXT
  5
3B
  8
HIBINO-BASE
 62
     7
 10
60.899999999999991
 20
-122.4523733333333
 30
0.0
 40
1.6288411458333329
  1
CHECK
 41
0.7
 11
60.899999999999991
 21
-120.82353218749989
 31
0.0
 73
     3
  0
LINE
  5
3C
  8
HIBINO-BASE
  6
CONTINUOUS
 62
     7
 10
14.375000000000011
 20
-128.74999999999989
 30
0.0
 11
18.125000000000011
 21
-124.9999999999999
 31
0.0
  0
TEXT
  5
3D
  8
HIBINO-BASE
 62
     7
 10
13.750000000000011
 20
-126.1089433333333
 30
0.0
 40
1.6288411458333329
  1
1
 41
0.7
 11
13.750000000000011
 21
-124.48010218749999
 31
0.0
 73
     3
  0
LINE
  5
3E
  8
HIBINO-BASE
  6
CONTINUOUS
 62
     7
 10
12.500000000000011
 20
-130.0
 30
0.0
 11
12.500000000000011
 21
-119.9999999999999
 31
0.0
  0
LINE
  5
3F
  8
HIBINO-BASE
  6
CONTINUOUS
 62
     7
 10
22.5
 20
-130.0
 30
0.0
 11
22.5
 21
-119.9999999999999
 31
0.0
  0
LINE
  5
40
  8
HIBINO-BASE
  6
CONTINUOUS
 62
     7
 10
47.499999999999993
 20
-119.9999999999999
 30
0.0
 11
47.499999999999993
 21
-130.0
 31
0.0
  0
LINE
  5
41
  8
HIBINO-BASE
  6
CONTINUOUS
 62
     7
 10
72.500000000000014
 20
-119.9999999999999
 30
0.0
 11
72.500000000000014
 21
-130.0
 31
0.0
  0
LINE
  5
42
  8
HIBINO-BASE
  6
CONTINUOUS
 62
     7
 10
60.0
 20
-130.0
 30
0.0
 11
60.0
 21
-119.9999999999999
 31
0.0
  0
TEXT
  5
43
  8
HIBINO-BASE
 62
     7
 10
23.35654000000001
 20
-127.1363533333333
 30
0.0
 40
1.6288411458333329
  1
'12.12.
 41
0.7
 11
23.35654000000001
 21
-125.5075121874999
 31
0.0
 73
     3
  0
TEXT
  5
44
  8
HIBINO-BASE
 62
     7
 10
17.500000000000011
 20
-127.9839433333333
 30
0.0
 40
1.6288411458333329
  1
1
 41
0.7
 11
17.500000000000011
 21
-126.35510218749999
 31
0.0
 73
     3
  0
TEXT
  5
45
  8
HIBINO-BASE
 62
     7
 10
49.005810011034633
 20
-127.1363533333333
 30
0.0
 40
1.6288411458333329
  1
N.Sasaki
 41
0.7
 11
49.005810011034633
 21
-125.5075121874999
 31
0.0
 73
     3
  0
TEXT
  5
46
  8
HIBINO-BASE
 62
     7
 10
3.8833333333333599
 20
-128.02399999999989
 30
0.0
 40
3.2576822916666659
  1
A4
 41
0.7
 11
3.8833333333333599
 21
-124.7663177083333
 31
0.0
 73
     3
  0
TEXT
  5
47
  8
HIBINO-BASE
 62
     7
 10
0.9583333333333355
 20
-122.6194549999999
 30
0.0
 40
1.6288411458333329
  1
PAPER SIZE
 41
0.7
 11
0.9583333333333355
 21
-120.9906138541666
 31
0.0
 73
     3
  0
TEXT
  5
48
  8
HIBINO-BASE
 62
     7
 10
-82.815999999999974
 20
-136.40867779999991
 30
0.0
 40
3.6000441796875
  1
Hibino Corporation
 41
0.7
 11
-82.815999999999974
 21
-132.80863362031241
 31
0.0
 73
     3
  0
TEXT
  5
49
  8
HIBINO-BASE
 62
     7
 10
50.068390000000008
 20
-136.40867779999991
 30
0.0
 40
3.6000441796875
  1
ヒビノ株式会社
 41
0.7
 11
50.068390000000008
 21
-132.80863362031241
 31
0.0
 73
     3
  0
LINE
  5
4A
  8
SPEC
  6
CONTINUOUS
 62
     7
 10
-82.499999999999986
 20
120.0
 30
0.0
 11
65.000000000000014
 21
120.0
 31
0.0
  0
LINE
  5
4B
  8
SPEC
  6
CONTINUOUS
 62
     7
 10
-82.499999999999986
 20
116.25
 30
0.0
 11
65.000000000000014
 21
116.25
 31
0.0
  0
LINE
  5
4C
  8
SPEC
  6
CONTINUOUS
 62
     7
 10
-82.499999999999986
 20
101.25
 30
0.0
 11
65.000000000000014
 21
101.25
 31
0.0
  0
LINE
  5
4D
  8
SPEC
  6
CONTINUOUS
 62
     7
 10
-82.499999999999986
 20
105.0
 30
0.0
 11
65.000000000000014
 21
105.0
 31
0.0
  0
LINE
  5
4E
  8
SPEC
  6
CONTINUOUS
 62
     7
 10
-82.499999999999986
 20
108.75
 30
0.0
 11
65.000000000000014
 21
108.75
 31
0.0
  0
LINE
  5
4F
  8
SPEC
  6
CONTINUOUS
 62
     7
 10
-82.499999999999986
 20
97.5
 30
0.0
 11
65.000000000000014
 21
97.5
 31
0.0
  0
LINE
  5
50
  8
SPEC
  6
CONTINUOUS
 62
     7
 10
-82.499999999999986
 20
112.5
 30
0.0
 11
65.000000000000014
 21
112.5
 31
0.0
  0
LINE
  5
51
  8
SPEC
  6
CONTINUOUS
 62
     7
 10
-82.499999999999986
 20
120.0
 30
0.0
 11
-82.499999999999986
 21
97.500000000000057
 31
0.0
  0
TEXT
  5
52
  8
SPEC
 62
     7
 10
-81.249999999999986
 20
121.39327
 30
0.0
 40
2.4432617187500001
  1
仕様
 41
0.7
 11
-81.249999999999986
 21
123.83653171875
 31
0.0
 73
     3
  0
LINE
  5
53
  8
SPEC
  6
CONTINUOUS
 62
     7
 10
-50.0
 20
120.0
 30
0.0
 11
-50.0
 21
97.500000000000057
 31
0.0
  0
LINE
  5
54
  8
SPEC
  6
CONTINUOUS
 62
     7
 10
65.000000000000014
 20
120.0
 30
0.0
 11
65.000000000000014
 21
97.500000000000057
 31
0.0
  0
TEXT
  5
55
  8
SPEC
 62
     7
 10
-81.59999999999998
 20
98.287921600000018
 30
0.0
 40
1.900311249999999
  1
質量
 41
0.7
 11
-81.59999999999998
 21
100.18823285000001
 31
0.0
 73
     3
  0
TEXT
  5
56
  8
SPEC
 62
     7
 10
-81.59999999999998
 20
102.03792
 30
0.0
 40
1.900314670138888
  1
寸法（\U+03C6\U+00D7全長)
 41
0.7
 11
-81.59999999999998
 21
103.9382346701389
 31
0.0
 73
     3
  0
TEXT
  5
57
  8
SPEC
 62
     7
 10
-49.099999999999987
 20
102.03792
 30
0.0
 40
1.900314670138888
  1
\U+03C619.1\U+00D765.5mm
 41
0.7
 11
-49.099999999999987
 21
103.9382346701389
 31
0.0
 73
     3
  0
TEXT
  5
58
  8
SPEC
 62
     7
 10
-49.099999999999987
 20
98.287920000000057
 30
0.0
 40
1.900314670138888
  1
43g
 41
0.7
 11
-49.099999999999987
 21
100.1882346701389
 31
0.0
 73
     3
  0
TEXT
  5
59
  8
SPEC
 62
     7
 10
-81.59999999999998
 20
105.78792
 30
0.0
 40
1.900314670138888
  1
出力コネクター
 41
0.7
 11
-81.59999999999998
 21
107.6882346701389
 31
0.0
 73
     3
  0
TEXT
  5
5A
  8
SPEC
 62
     7
 10
-49.099999999999987
 20
105.78792
 30
0.0
 40
1.900314670138888
  1
XLR 3ピン
 41
0.7
 11
-49.099999999999987
 21
107.6882346701389
 31
0.0
 73
     3
  0
TEXT
  5
5B
  8
SPEC
 62
     7
 10
-81.59999999999998
 20
109.53792
 30
0.0
 40
1.900314670138888
  1
電源
 41
0.7
 11
-81.59999999999998
 21
111.4382346701389
 31
0.0
 73
     3
  0
TEXT
  5
5C
  8
SPEC
 62
     7
 10
-49.099999999999987
 20
109.53792
 30
0.0
 40
1.900314670138888
  1
ファンタムDC15～52V/約3.5mA
 41
0.7
 11
-49.099999999999987
 21
111.4382346701389
 31
0.0
 73
     3
  0
TEXT
  5
5D
  8
SPEC
 62
     7
 10
-81.59999999999998
 20
113.28792
 30
0.0
 40
1.900314670138888
  1
インピーダンス
 41
0.7
 11
-81.59999999999998
 21
115.1882346701389
 31
0.0
 73
     3
  0
TEXT
  5
5E
  8
SPEC
 62
     7
 10
-49.099999999999987
 20
113.28792
 30
0.0
 40
1.900314670138888
  1
600\U+03A9以下
 41
0.7
 11
-49.099999999999987
 21
115.1882346701389
 31
0.0
 73
     3
  0
TEXT
  5
5F
  8
SPEC
 62
     7
 10
-81.59999999999998
 20
117.03792
 30
0.0
 40
1.900314670138888
  1
ローカットフィルター
 41
0.7
 11
-81.59999999999998
 21
118.9382346701388
 31
0.0
 73
     3
  0
TEXT
  5
60
  8
SPEC
 62
     7
 10
-49.099999999999987
 20
117.03792
 30
0.0
 40
1.900314670138888
  1
150Hz
 41
0.7
 11
-49.099999999999987
 21
118.9382346701388
 31
0.0
 73
     3
  0
TEXT
  5
61
  8
DIMNSIONS
 62
     7
 10
-20.0
 20
-117.7305099999999
 30
0.0
 40
2.4432617187500001
  1
(単位：mm)
 41
0.7
 11
-20.0
 21
-115.2872482812499
 31
0.0
 73
     3
  0
LINE
  5
62
  8
DIMNSIONS
  6
CONTINUOUS
 62
     7
 10
-10.749999999999989
 20
25.500000001490111
 30
0.0
 11
-27.399999999999999
 21
25.500000001490111
 31
0.0
  0
LINE
  5
63
  8
DIMNSIONS
  6
CONTINUOUS
 62
     7
 10
-12.0
 20
-40.0
 30
0.0
 11
-27.399999999999999
 21
-40.0
 31
0.0
  0
LINE
  5
64
  8
DIMNSIONS
  6
CONTINUOUS
 62
     7
 10
-25.399999999999999
 20
25.500000001490111
 30
0.0
 11
-25.399999999999999
 21
-40.0
 31
0.0
  0
LINE
  5
65
  8
DIMNSIONS
  6
CONTINUOUS
 62
     7
 10
-25.399999999999999
 20
25.500000001490111
 30
0.0
 11
-24.729960204849771
 21
22.99937744289636
 31
0.0
  0
LINE
  5
66
  8
DIMNSIONS
  6
CONTINUOUS
 62
     7
 10
-25.399999999999999
 20
25.500000001490111
 30
0.0
 11
-26.07003979515024
 21
22.99937744289636
 31
0.0
  0
LINE
  5
67
  8
DIMNSIONS
  6
CONTINUOUS
 62
     7
 10
-25.399999999999999
 20
-40.0
 30
0.0
 11
-26.07003979515024
 21
-37.49937744140626
 31
0.0
  0
LINE
  5
68
  8
DIMNSIONS
  6
CONTINUOUS
 62
     7
 10
-25.399999999999999
 20
-40.0
 30
0.0
 11
-24.729960204849771
 21
-37.49937744140626
 31
0.0
  0
TEXT
  5
69
  8
DIMNSIONS
 62
     7
 10
-26.393888888888888
 20
-10.77777777703273
 30
0.0
 40
2.7147352430555549
  1
65.5
 50
90.0
 41
0.7
 11
-29.108624131944449
 21
-10.77777777703273
 31
0.0
 73
     3
  0
LINE
  5
6A
  8
DIMNSIONS
  6
CONTINUOUS
 62
     7
 10
11.15
 20
20.399999999999991
 30
0.0
 11
26.600000000000001
 21
20.399999999999991
 31
0.0
  0
LINE
  5
6B
  8
DIMNSIONS
  6
CONTINUOUS
 62
     7
 10
11.199999999999999
 20
-40.0
 30
0.0
 11
26.600000000000001
 21
-40.0
 31
0.0
  0
LINE
  5
6C
  8
DIMNSIONS
  6
CONTINUOUS
 62
     7
 10
24.600000000000001
 20
20.399999999999991
 30
0.0
 11
24.600000000000001
 21
-40.0
 31
0.0
  0
LINE
  5
6D
  8
DIMNSIONS
  6
CONTINUOUS
 62
     7
 10
24.600000000000001
 20
20.399999999999991
 30
0.0
 11
25.27003979515025
 21
17.899377441406241
 31
0.0
  0
LINE
  5
6E
  8
DIMNSIONS
  6
CONTINUOUS
 62
     7
 10
24.600000000000001
 20
20.399999999999991
 30
0.0
 11
23.92996020484976
 21
17.899377441406241
 31
0.0
  0
LINE
  5
6F
  8
DIMNSIONS
  6
CONTINUOUS
 62
     7
 10
24.600000000000001
 20
-40.0
 30
0.0
 11
23.92996020484976
 21
-37.49937744140626
 31
0.0
  0
LINE
  5
70
  8
DIMNSIONS
  6
CONTINUOUS
 62
     7
 10
24.600000000000001
 20
-40.0
 30
0.0
 11
25.27003979515025
 21
-37.49937744140626
 31
0.0
  0
TEXT
  5
71
  8
DIMNSIONS
 62
     7
 10
23.606111059594479
 20
-13.32777811421289
 30
0.0
 40
2.7147355262245449
  1
60.4
 50
90.0
 41
0.7
 11
20.891375533369938
 21
-13.32777811421289
 31
0.0
 73
     3
  0
LINE
  5
72
  8
DIMNSIONS
  6
CONTINUOUS
 62
     7
 10
6.4411311322596578
 20
-76.663439414538686
 30
0.0
 11
14.999999999999989
 21
-85.000000000000099
 31
0.0
  0
LINE
  5
73
  8
DIMNSIONS
  6
CONTINUOUS
 62
     7
 10
6.4411311322596578
 20
-76.663439414538686
 30
0.0
 11
8.705377216522562
 21
-77.91853151376209
 31
0.0
  0
LINE
  5
74
  8
DIMNSIONS
  6
CONTINUOUS
 62
     7
 10
6.4411311322596578
 20
-76.663439414538686
 30
0.0
 11
7.7744797120390654
 21
-78.882504098686752
 31
0.0
  0
LINE
  5
75
  8
DIMNSIONS
  6
CONTINUOUS
 62
     7
 10
14.999999999999989
 20
-85.000000000000099
 30
0.0
 11
27.583335351943969
 21
-85.000000000000099
 31
0.0
  0
TEXT
  5
76
  8
DIMNSIONS
 62
     7
 10
16.999999999999989
 20
-84.006111030156546
 30
0.0
 40
2.714735688035399
  1
\U+03C619.1
 41
0.7
 11
16.999999999999989
 21
-81.291375342121114
 31
0.0
 73
     3
  0
TEXT
  5
77
  8
DATA
 62
     7
 10
-87.499999999999986
 20
-122.1237222222222
 30
0.0
 40
1.900314670138888
  1
※仕様及び外観は予告なく変更されることがあります。
 41
0.7
 11
-87.499999999999986
 21
-120.2234075520833
 31
0.0
 73
     3
  0
TEXT
  5
78
  8
DATA
 62
     7
 10
-87.499999999999986
 20
-124.5931666666666
 30
0.0
 40
1.900314670138888
  1
　また、同一商品でも若干の個体差があることがあります。ご了承ください。
 41
0.7
 11
-87.499999999999986
 21
-122.69285199652769
 31
0.0
 73
     3
  0
POLYLINE
  5
79
  8
DATA
  6
CONTINUOUS
 62
     7
 66
     1
 10
0.0
 20
0.0
 30
0.0
 70
     1
  0
VERTEX
  5
1EE
  8
DATA
  6
CONTINUOUS
 62
     7
 10
-9.9500000000000028
 20
20.399999999999991
 30
0.0
  0
VERTEX
  5
1EF
  8
DATA
  6
CONTINUOUS
 62
     7
 10
9.1499999999999986
 20
20.399999999999991
 30
0.0
  0
VERTEX
  5
1F0
  8
DATA
  6
CONTINUOUS
 62
     7
 10
9.1499999999999986
 20
-40.0
 30
0.0
  0
VERTEX
  5
1F1
  8
DATA
  6
CONTINUOUS
 62
     7
 10
-9.9500000000000028
 20
-40.0
 30
0.0
  0
SEQEND
  5
1F2
  8
DATA
  6
CONTINUOUS
 62
     7
  0
LINE
  5
80
  8
DATA
  6
CONTINUOUS
 62
     7
 10
-1.8999999999999999
 20
-23.000000000000011
 30
0.0
 11
1.099999999999999
 21
-23.000000000000011
 31
0.0
  0
CIRCLE
  5
81
  8
DATA
  6
CONTINUOUS
 62
     7
 10
-0.4000000000000005
 20
-23.000000000000011
 30
0.0
 40
2.5
  0
LINE
  5
82
  8
DATA
  6
CONTINUOUS
 62
     7
 10
-0.4000000000000005
 20
-24.500000000000011
 30
0.0
 11
-0.4000000000000005
 21
-21.500000000000011
 31
0.0
  0
TEXT
  5
83
  8
DATA
 62
     7
 10
-4.6096296296296293
 20
-35.543402777777793
 30
0.0
 40
3.0868055555555549
  1
PAE M
 41
0.7
 72
     1
 11
0.0
 21
-34.000000000000007
 31
0.0
 73
     2
  0
POLYLINE
  5
84
  8
DATA
  6
CONTINUOUS
 62
     7
 66
     1
 10
0.0
 20
0.0
 30
0.0
 70
     1
  0
VERTEX
  5
1F3
  8
DATA
  6
CONTINUOUS
 62
     7
 10
-6.8195378899690073
 20
0.2000000000000028
 30
0.0
  0
VERTEX
  5
1F4
  8
DATA
  6
CONTINUOUS
 62
     7
 10
-6.2448423338361119
 20
1.619753086419734
 30
0.0
  0
VERTEX
  5
1F5
  8
DATA
  6
CONTINUOUS
 62
     7
 10
-4.6043320806469641
 20
1.619753086419734
 30
0.0
  0
VERTEX
  5
1F6
  8
DATA
  6
CONTINUOUS
 62
     7
 10
-4.0692707007990752
 20
0.2000000000000028
 30
0.0
  0
VERTEX
  5
1F7
  8
DATA
  6
CONTINUOUS
 62
     7
 10
-2.8999999999999999
 20
0.2000000000000028
 30
0.0
  0
VERTEX
  5
1F8
  8
DATA
  6
CONTINUOUS
 62
     7
 10
-5.0023970685531882
 20
5.200000000000002
 30
0.0
  0
VERTEX
  5
1F9
  8
DATA
  6
CONTINUOUS
 62
     7
 10
-5.8864115222148943
 20
5.200000000000002
 30
0.0
  0
VERTEX
  5
1FA
  8
DATA
  6
CONTINUOUS
 62
     7
 10
-7.9000000000000004
 20
0.2000000000000028
 30
0.0
  0
SEQEND
  5
1FB
  8
DATA
  6
CONTINUOUS
 62
     7
  0
POLYLINE
  5
8F
  8
DATA
  6
CONTINUOUS
 62
     7
 66
     1
 10
0.0
 20
0.0
 30
0.0
 70
     1
  0
VERTEX
  5
1FC
  8
DATA
  6
CONTINUOUS
 62
     7
 10
-5.9553184308792542
 20
2.2083498970291511
 30
0.0
  0
VERTEX
  5
1FD
  8
DATA
  6
CONTINUOUS
 62
     7
 10
-4.9000000000000004
 20
2.2083498970291511
 30
0.0
  0
VERTEX
  5
1FE
  8
DATA
  6
CONTINUOUS
 62
     7
 10
-5.4088142434596529
 20
3.7083498970291511
 30
0.0
  0
SEQEND
  5
1FF
  8
DATA
  6
CONTINUOUS
 62
     7
  0
POLYLINE
  5
95
  8
DATA
  6
CONTINUOUS
 62
     7
 66
     1
 10
0.0
 20
0.0
 30
0.0
 70
     1
  0
VERTEX
  5
200
  8
DATA
  6
CONTINUOUS
 62
     7
 10
-0.3635936860903204
 20
3.185704664487901
 30
0.0
  0
VERTEX
  5
201
  8
DATA
  6
CONTINUOUS
 62
     7
 10
1.8500000000000001
 20
0.2018904465672122
 30
0.0
  0
VERTEX
  5
202
  8
DATA
  6
CONTINUOUS
 62
     7
 10
0.7047188376096241
 20
0.2018904465672122
 30
0.0
  0
VERTEX
  5
203
  8
DATA
  6
CONTINUOUS
 62
     7
 10
-0.9805224377238291
 20
2.5786108624292079
 30
0.0
  0
VERTEX
  5
204
  8
DATA
  6
CONTINUOUS
 62
     7
 10
-1.5345884102522911
 20
2.0333776941532871
 30
0.0
  0
VERTEX
  5
205
  8
DATA
  6
CONTINUOUS
 62
     7
 10
-1.5345884102522911
 20
0.2050189012222106
 30
0.0
  0
VERTEX
  5
206
  8
DATA
  6
CONTINUOUS
 62
     7
 10
-2.6499999999999999
 20
0.2050189012222106
 30
0.0
  0
VERTEX
  5
207
  8
DATA
  6
CONTINUOUS
 62
     7
 10
-2.6499999999999999
 20
5.200000000000002
 30
0.0
  0
VERTEX
  5
208
  8
DATA
  6
CONTINUOUS
 62
     7
 10
-1.5345884102522911
 20
5.200000000000002
 30
0.0
  0
VERTEX
  5
209
  8
DATA
  6
CONTINUOUS
 62
     7
 10
-1.5345884102522911
 20
3.1242472260701031
 30
0.0
  0
VERTEX
  5
20A
  8
DATA
  6
CONTINUOUS
 62
     7
 10
0.5404761904762037
 20
5.200000000000002
 30
0.0
  0
VERTEX
  5
20B
  8
DATA
  6
CONTINUOUS
 62
     7
 10
1.683333333333314
 20
5.200000000000002
 30
0.0
  0
SEQEND
  5
20C
  8
DATA
  6
CONTINUOUS
 62
     7
  0
POLYLINE
  5
A4
  8
DATA
  6
CONTINUOUS
 62
     7
 66
     1
 10
0.0
 20
0.0
 30
0.0
 70
   129
  0
VERTEX
  5
20D
  8
DATA
  6
CONTINUOUS
 62
     7
 10
6.1348701382788748
 20
0.2000000000000028
 30
0.0
  0
VERTEX
  5
20E
  8
DATA
  6
CONTINUOUS
 62
     7
 10
7.083166339621191
 20
0.2000000000000028
 30
0.0
  0
VERTEX
  5
20F
  8
DATA
  6
CONTINUOUS
 62
     7
 10
7.0915831698105531
 20
2.9614358100973628
 30
0.0
  0
VERTEX
  5
210
  8
DATA
  6
CONTINUOUS
 62
     7
 10
4.552506062666259
 20
2.9614358100973628
 30
0.0
  0
VERTEX
  5
211
  8
DATA
  6
CONTINUOUS
 62
     7
 10
4.552506062666259
 20
2.3786690995029081
 30
0.0
  0
VERTEX
  5
212
  8
DATA
  6
CONTINUOUS
 62
     7
 10
5.9665335344902859
 20
2.3786690995029081
 30
0.0
  0
VERTEX
  5
213
  8
DATA
  6
CONTINUOUS
 62
     7
 10
5.9665335344902859
 20
1.8637376673903461
 30
0.0
  0
VERTEX
  5
214
  8
DATA
  6
CONTINUOUS
 62
     7
 10
5.9328662137324999
 20
1.5769794447168901
 30
0.0
  0
VERTEX
  5
215
  8
DATA
  6
CONTINUOUS
 62
     7
 10
5.7971388442375131
 20
1.2815523859222819
 30
0.0
  0
VERTEX
  5
216
  8
DATA
  6
CONTINUOUS
 62
     7
 10
5.6189586744659197
 20
1.1119641897175681
 30
0.0
  0
VERTEX
  5
217
  8
DATA
  6
CONTINUOUS
 62
     7
 10
5.4026059117985081
 20
0.9495031187593239
 30
0.0
  0
VERTEX
  5
218
  8
DATA
  6
CONTINUOUS
 62
     7
 10
5.2174356476311123
 20
0.8785844185283053
 30
0.0
  0
VERTEX
  5
219
  8
DATA
  6
CONTINUOUS
 62
     7
 10
4.9604346385358484
 20
0.8369582249144187
 30
0.0
  0
VERTEX
  5
21A
  8
DATA
  6
CONTINUOUS
 62
     7
 10
4.6983977859496564
 20
0.806124007422639
 30
0.0
  0
VERTEX
  5
21B
  8
DATA
  6
CONTINUOUS
 62
     7
 10
4.4739489808981761
 20
0.8338748031651874
 30
0.0
  0
VERTEX
  5
21C
  8
DATA
  6
CONTINUOUS
 62
     7
 10
4.2590321227501473
 20
0.8832095511520421
 30
0.0
  0
VERTEX
  5
21D
  8
DATA
  6
CONTINUOUS
 62
     7
 10
4.081163572058192
 20
0.9757122036273599
 30
0.0
  0
VERTEX
  5
21E
  8
DATA
  6
CONTINUOUS
 62
     7
 10
3.8567147670067969
 20
1.09904907359445
 30
0.0
  0
VERTEX
  5
21F
  8
DATA
  6
CONTINUOUS
 62
     7
 10
3.6785345972351471
 20
1.268637269799157
 30
0.0
  0
VERTEX
  5
220
  8
DATA
  6
CONTINUOUS
 62
     7
 10
3.520041559429619
 20
1.5769794447168901
 30
0.0
  0
VERTEX
  5
221
  8
DATA
  6
CONTINUOUS
 62
     7
 10
3.379761056272462
 20
1.9778242721099339
 30
0.0
  0
VERTEX
  5
222
  8
DATA
  6
CONTINUOUS
 62
     7
 10
3.379761056272462
 20
3.087856101813677
 30
0.0
  0
VERTEX
  5
223
  8
DATA
  6
CONTINUOUS
 62
     7
 10
3.491985458798188
 20
3.5657864729361171
 30
0.0
  0
VERTEX
  5
224
  8
DATA
  6
CONTINUOUS
 62
     7
 10
3.772546465112447
 20
4.0282997353127072
 30
0.0
  0
VERTEX
  5
225
  8
DATA
  6
CONTINUOUS
 62
     7
 10
3.9669248321360202
 20
4.213305040263343
 30
0.0
  0
VERTEX
  5
226
  8
DATA
  6
CONTINUOUS
 62
     7
 10
4.1933879745839748
 20
4.4288479701180128
 30
0.0
  0
VERTEX
  5
227
  8
DATA
  6
CONTINUOUS
 62
     7
 10
4.3617245783724803
 20
4.5129412905501374
 30
0.0
  0
VERTEX
  5
228
  8
DATA
  6
CONTINUOUS
 62
     7
 10
4.6422855846868512
 20
4.5830190575768759
 30
0.0
  0
VERTEX
  5
229
  8
DATA
  6
CONTINUOUS
 62
     7
 10
4.8442895092330547
 20
4.6018161806596254
 30
0.0
  0
VERTEX
  5
22A
  8
DATA
  6
CONTINUOUS
 62
     7
 10
5.08837758472652
 20
4.5829367975428141
 30
0.0
  0
VERTEX
  5
22B
  8
DATA
  6
CONTINUOUS
 62
     7
 10
5.3969946916722673
 20
4.4850250068126476
 30
0.0
  0
VERTEX
  5
22C
  8
DATA
  6
CONTINUOUS
 62
     7
 10
5.6242491067868681
 20
4.3489755972270601
 30
0.0
  0
VERTEX
  5
22D
  8
DATA
  6
CONTINUOUS
 62
     7
 10
5.7364735093125647
 20
4.213305040263343
 30
0.0
  0
VERTEX
  5
22E
  8
DATA
  6
CONTINUOUS
 62
     7
 10
5.8374754715856962
 20
4.0282997353127072
 30
0.0
  0
VERTEX
  5
22F
  8
DATA
  6
CONTINUOUS
 62
     7
 10
5.8767540124696946
 20
3.8947836570442851
 30
0.0
  0
VERTEX
  5
230
  8
DATA
  6
CONTINUOUS
 62
     7
 10
5.9216437734799614
 20
3.547285942441043
 30
0.0
  0
VERTEX
  5
231
  8
DATA
  6
CONTINUOUS
 62
     7
 10
7.0943887798737579
 20
3.547285942441043
 30
0.0
  0
VERTEX
  5
232
  8
DATA
  6
CONTINUOUS
 62
     7
 10
7.0999999999999988
 20
3.7631254648834509
 30
0.0
  0
VERTEX
  5
233
  8
DATA
  6
CONTINUOUS
 62
     7
 10
7.083166339621191
 20
3.9049628653455799
 30
0.0
  0
VERTEX
  5
234
  8
DATA
  6
CONTINUOUS
 62
     7
 10
6.9709419370954944
 20
4.1824708227715766
 30
0.0
  0
VERTEX
  5
235
  8
DATA
  6
CONTINUOUS
 62
     7
 10
6.830661433938336
 20
4.4445616714516012
 30
0.0
  0
VERTEX
  5
236
  8
DATA
  6
CONTINUOUS
 62
     7
 10
6.5876884751588483
 20
4.6758183026398612
 30
0.0
  0
VERTEX
  5
237
  8
DATA
  6
CONTINUOUS
 62
     7
 10
6.3088179621937606
 20
4.8947412468314289
 30
0.0
  0
VERTEX
  5
238
  8
DATA
  6
CONTINUOUS
 62
     7
 10
5.9020045030380333
 20
5.0682795735044834
 30
0.0
  0
VERTEX
  5
239
  8
DATA
  6
CONTINUOUS
 62
     7
 10
5.3240488300305682
 20
5.1772530990388779
 30
0.0
  0
VERTEX
  5
23A
  8
DATA
  6
CONTINUOUS
 62
     7
 10
4.7545099872125478
 20
5.200000000000002
 30
0.0
  0
VERTEX
  5
23B
  8
DATA
  6
CONTINUOUS
 62
     7
 10
4.2943899368571046
 20
5.1691657825082231
 30
0.0
  0
VERTEX
  5
23C
  8
DATA
  6
CONTINUOUS
 62
     7
 10
3.7680516986585011
 20
5.0217662476306524
 30
0.0
  0
VERTEX
  5
23D
  8
DATA
  6
CONTINUOUS
 62
     7
 10
3.1334400734345191
 20
4.7328117437360211
 30
0.0
  0
VERTEX
  5
23E
  8
DATA
  6
CONTINUOUS
 62
     7
 10
2.8354727040227821
 20
4.5093135281843431
 30
0.0
  0
VERTEX
  5
23F
  8
DATA
  6
CONTINUOUS
 62
     7
 10
2.6054126788450609
 20
4.2441392577551147
 30
0.0
  0
VERTEX
  5
240
  8
DATA
  6
CONTINUOUS
 62
     7
 10
2.3529077731622059
 20
3.8606287437331162
 30
0.0
  0
VERTEX
  5
241
  8
DATA
  6
CONTINUOUS
 62
     7
 10
2.2126272700049912
 20
3.4948677727050348
 30
0.0
  0
VERTEX
  5
242
  8
DATA
  6
CONTINUOUS
 62
     7
 10
2.1340701882370521
 20
3.164941645543073
 30
0.0
  0
VERTEX
  5
243
  8
DATA
  6
CONTINUOUS
 62
     7
 10
2.1000000000000001
 20
2.9182679056089631
 30
0.0
  0
VERTEX
  5
244
  8
DATA
  6
CONTINUOUS
 62
     7
 10
2.1000000000000001
 20
2.4341706909881391
 30
0.0
  0
VERTEX
  5
245
  8
DATA
  6
CONTINUOUS
 62
     7
 10
2.138875673404788
 20
1.9963248026049381
 30
0.0
  0
VERTEX
  5
246
  8
DATA
  6
CONTINUOUS
 62
     7
 10
2.2519058108890762
 20
1.6108970839578229
 30
0.0
  0
VERTEX
  5
247
  8
DATA
  6
CONTINUOUS
 62
     7
 10
2.3977975341724731
 20
1.268637269799157
 30
0.0
  0
VERTEX
  5
248
  8
DATA
  6
CONTINUOUS
 62
     7
 10
2.6951922008655389
 20
0.8616255989077714
 30
0.0
  0
VERTEX
  5
249
  8
DATA
  6
CONTINUOUS
 62
     7
 10
3.1216449304633089
 20
0.5378663152441591
 30
0.0
  0
VERTEX
  5
24A
  8
DATA
  6
CONTINUOUS
 62
     7
 10
3.6294603518921962
 20
0.3232964370514537
 30
0.0
  0
VERTEX
  5
24B
  8
DATA
  6
CONTINUOUS
 62
     7
 10
3.8791596475119881
 20
0.2665252013165826
 30
0.0
  0
VERTEX
  5
24C
  8
DATA
  6
CONTINUOUS
 62
     7
 10
4.3060080134429528
 20
0.2094818989568523
 30
0.0
  0
VERTEX
  5
24D
  8
DATA
  6
CONTINUOUS
 62
     7
 10
4.8102265521419891
 20
0.2002316337093077
 30
0.0
  0
VERTEX
  5
24E
  8
DATA
  6
CONTINUOUS
 62
     7
 10
5.2194499850274996
 20
0.2665252013165826
 30
0.0
  0
VERTEX
  5
24F
  8
DATA
  6
CONTINUOUS
 62
     7
 10
5.6283765608698149
 20
0.4092076053630366
 30
0.0
  0
VERTEX
  5
250
  8
DATA
  6
CONTINUOUS
 62
     7
 10
5.856854040713988
 20
0.5347582725429163
 30
0.0
  0
VERTEX
  5
251
  8
DATA
  6
CONTINUOUS
 62
     7
 10
6.0002008552479591
 20
0.6488694982145518
 30
0.0
  0
SEQEND
  5
252
  8
DATA
  6
CONTINUOUS
 62
     7
  0
CIRCLE
  5
EB
  8
DATA
  6
CONTINUOUS
 62
     7
 10
-0.4000000000000005
 20
59.999999999999609
 30
0.0
 40
9.5500000000000007
  0
ARC
  5
EC
  8
DATA
  6
CONTINUOUS
 62
     7
 10
-0.4000000000000005
 20
60.0
 30
0.0
 40
8.3499999999996533
 50
96.878279351166441
 51
83.121720648833545
  0
POLYLINE
  5
ED
  8
DATA
  6
CONTINUOUS
 62
     7
 66
     1
 10
0.0
 20
0.0
 30
0.0
  0
VERTEX
  5
253
  8
DATA
  6
CONTINUOUS
 62
     7
 10
0.5999999999999996
 20
68.289903497628529
 30
0.0
  0
VERTEX
  5
254
  8
DATA
  6
CONTINUOUS
 62
     7
 10
0.5999999999999996
 20
67.349999999999625
 30
0.0
  0
VERTEX
  5
255
  8
DATA
  6
CONTINUOUS
 62
     7
 10
-1.3999999999999999
 20
67.349999999999625
 30
0.0
  0
VERTEX
  5
256
  8
DATA
  6
CONTINUOUS
 62
     7
 10
-1.3999999999999999
 20
68.289903497628529
 30
0.0
  0
SEQEND
  5
257
  8
DATA
  6
CONTINUOUS
 62
     7
  0
POLYLINE
  5
F4
  8
DATA
  6
CONTINUOUS
 62
     7
 66
     1
 10
0.0
 20
0.0
 30
0.0
  0
VERTEX
  5
258
  8
DATA
  6
CONTINUOUS
 62
     7
 10
3.3500000000000001
 20
59.355060505968332
 30
0.0
  0
VERTEX
  5
259
  8
DATA
  6
CONTINUOUS
 62
     7
 10
3.3500000000000001
 20
55.855060505968332
 30
0.0
  0
VERTEX
  5
25A
  8
DATA
  6
CONTINUOUS
 62
     7
 10
-4.1500000000000004
 20
55.855060505968332
 30
0.0
  0
VERTEX
  5
25B
  8
DATA
  6
CONTINUOUS
 62
     7
 10
-4.1500000000000004
 20
57.605060505968332
 30
0.0
  0
SEQEND
  5
25C
  8
DATA
  6
CONTINUOUS
 62
     7
  0
POLYLINE
  5
FB
  8
DATA
  6
CONTINUOUS
 62
     7
 66
     1
 10
0.0
 20
0.0
 30
0.0
  0
VERTEX
  5
25D
  8
DATA
  6
CONTINUOUS
 62
     7
 10
-4.1500000000000004
 20
59.355060505968332
 30
0.0
  0
VERTEX
  5
25E
  8
DATA
  6
CONTINUOUS
 62
     7
 10
-4.1500000000000004
 20
62.855060505968332
 30
0.0
  0
VERTEX
  5
25F
  8
DATA
  6
CONTINUOUS
 62
     7
 10
3.3500000000000001
 20
62.855060505968332
 30
0.0
  0
VERTEX
  5
260
  8
DATA
  6
CONTINUOUS
 62
     7
 10
3.3500000000000001
 20
61.105060505968332
 30
0.0
  0
SEQEND
  5
261
  8
DATA
  6
CONTINUOUS
 62
     7
  0
POLYLINE
  5
102
  8
DATA
  6
CONTINUOUS
 62
     7
 66
     1
 10
0.0
 20
0.0
 30
0.0
 70
     1
  0
VERTEX
  5
262
  8
DATA
  6
CONTINUOUS
 62
     7
 10
-3.0249999999999999
 20
61.855060505968332
 30
0.0
  0
VERTEX
  5
263
  8
DATA
  6
CONTINUOUS
 62
     7
 10
-1.5249999999999999
 20
61.855060505968332
 30
0.0
  0
VERTEX
  5
264
  8
DATA
  6
CONTINUOUS
 62
     7
 10
-1.5249999999999999
 20
60.355060505968332
 30
0.0
  0
VERTEX
  5
265
  8
DATA
  6
CONTINUOUS
 62
     7
 10
-3.0249999999999999
 20
60.355060505968332
 30
0.0
  0
SEQEND
  5
266
  8
DATA
  6
CONTINUOUS
 62
     7
  0
POLYLINE
  5
109
  8
DATA
  6
CONTINUOUS
 62
     7
 66
     1
 10
0.0
 20
0.0
 30
0.0
 70
     1
  0
VERTEX
  5
267
  8
DATA
  6
CONTINUOUS
 62
     7
 10
-3.0249999999999999
 20
58.355060505968332
 30
0.0
  0
VERTEX
  5
268
  8
DATA
  6
CONTINUOUS
 62
     7
 10
-1.5249999999999999
 20
58.355060505968332
 30
0.0
  0
VERTEX
  5
269
  8
DATA
  6
CONTINUOUS
 62
     7
 10
-1.5249999999999999
 20
56.855060505968332
 30
0.0
  0
VERTEX
  5
26A
  8
DATA
  6
CONTINUOUS
 62
     7
 10
-3.0249999999999999
 20
56.855060505968332
 30
0.0
  0
SEQEND
  5
26B
  8
DATA
  6
CONTINUOUS
 62
     7
  0
POLYLINE
  5
110
  8
DATA
  6
CONTINUOUS
 62
     7
 66
     1
 10
0.0
 20
0.0
 30
0.0
 70
     1
  0
VERTEX
  5
26C
  8
DATA
  6
CONTINUOUS
 62
     7
 10
0.7249999999999996
 20
58.355060505968332
 30
0.0
  0
VERTEX
  5
26D
  8
DATA
  6
CONTINUOUS
 62
     7
 10
2.2250000000000001
 20
58.355060505968332
 30
0.0
  0
VERTEX
  5
26E
  8
DATA
  6
CONTINUOUS
 62
     7
 10
2.2250000000000001
 20
56.855060505968332
 30
0.0
  0
VERTEX
  5
26F
  8
DATA
  6
CONTINUOUS
 62
     7
 10
0.7249999999999996
 20
56.855060505968332
 30
0.0
  0
SEQEND
  5
270
  8
DATA
  6
CONTINUOUS
 62
     7
  0
POLYLINE
  5
117
  8
DATA
  6
CONTINUOUS
 62
     7
 66
     1
 10
0.0
 20
0.0
 30
0.0
 70
     1
  0
VERTEX
  5
271
  8
DATA
  6
CONTINUOUS
 62
     7
 10
0.7249999999999996
 20
61.855060505968332
 30
0.0
  0
VERTEX
  5
272
  8
DATA
  6
CONTINUOUS
 62
     7
 10
2.2250000000000001
 20
61.855060505968332
 30
0.0
  0
VERTEX
  5
273
  8
DATA
  6
CONTINUOUS
 62
     7
 10
2.2250000000000001
 20
60.355060505968332
 30
0.0
  0
VERTEX
  5
274
  8
DATA
  6
CONTINUOUS
 62
     7
 10
0.7249999999999996
 20
60.355060505968332
 30
0.0
  0
SEQEND
  5
275
  8
DATA
  6
CONTINUOUS
 62
     7
  0
CIRCLE
  5
11E
  8
DATA
  6
CONTINUOUS
 62
     7
 10
-0.4000000000000005
 20
-70.0
 30
0.0
 40
9.5500000000000007
  0
POLYLINE
  5
11F
  8
DATA
  6
CONTINUOUS
 62
     7
 66
     1
 10
0.0
 20
0.0
 30
0.0
 70
   129
  0
VERTEX
  5
276
  8
DATA
  6
CONTINUOUS
 62
     7
 10
-5.9000000000000004
 20
-70.0
 30
0.0
 42
-0.4142135623730951
  0
VERTEX
  5
277
  8
DATA
  6
CONTINUOUS
 62
     7
 10
-4.4000000000000004
 20
-68.5
 30
0.0
 42
-0.414213562373094
  0
VERTEX
  5
278
  8
DATA
  6
CONTINUOUS
 62
     7
 10
-2.8999999999999999
 20
-70.0
 30
0.0
 42
-0.4142135623730951
  0
VERTEX
  5
279
  8
DATA
  6
CONTINUOUS
 62
     7
 10
-4.4000000000000004
 20
-71.5
 30
0.0
 42
-0.4142135623730961
  0
VERTEX
  5
27A
  8
DATA
  6
CONTINUOUS
 62
     7
 10
-5.9000000000000004
 20
-70.0
 30
0.0
  0
SEQEND
  5
27B
  8
DATA
  6
CONTINUOUS
 62
     7
  0
POLYLINE
  5
126
  8
DATA
  6
CONTINUOUS
 62
     7
 66
     1
 10
0.0
 20
0.0
 30
0.0
 70
   129
  0
VERTEX
  5
27C
  8
DATA
  6
CONTINUOUS
 62
     7
 10
2.1000000000000001
 20
-70.000000000000014
 30
0.0
 42
-0.4142135623730951
  0
VERTEX
  5
27D
  8
DATA
  6
CONTINUOUS
 62
     7
 10
3.6000000000000001
 20
-68.500000000000014
 30
0.0
 42
-0.414213562373094
  0
VERTEX
  5
27E
  8
DATA
  6
CONTINUOUS
 62
     7
 10
5.0999999999999988
 20
-70.000000000000014
 30
0.0
 42
-0.4142135623730951
  0
VERTEX
  5
27F
  8
DATA
  6
CONTINUOUS
 62
     7
 10
3.6000000000000001
 20
-71.500000000000014
 30
0.0
 42
-0.4142135623730961
  0
VERTEX
  5
280
  8
DATA
  6
CONTINUOUS
 62
     7
 10
2.1000000000000001
 20
-70.000000000000014
 30
0.0
  0
SEQEND
  5
281
  8
DATA
  6
CONTINUOUS
 62
     7
  0
POLYLINE
  5
12D
  8
DATA
  6
CONTINUOUS
 62
     7
 66
     1
 10
0.0
 20
0.0
 30
0.0
 70
   129
  0
VERTEX
  5
282
  8
DATA
  6
CONTINUOUS
 62
     7
 10
-1.8999999999999999
 20
-75.000000000000014
 30
0.0
 42
-0.4142135623730951
  0
VERTEX
  5
283
  8
DATA
  6
CONTINUOUS
 62
     7
 10
-0.4000000000000005
 20
-73.500000000000014
 30
0.0
 42
-0.414213562373094
  0
VERTEX
  5
284
  8
DATA
  6
CONTINUOUS
 62
     7
 10
1.099999999999999
 20
-75.000000000000014
 30
0.0
 42
-0.4142135623730951
  0
VERTEX
  5
285
  8
DATA
  6
CONTINUOUS
 62
     7
 10
-0.4000000000000005
 20
-76.500000000000014
 30
0.0
 42
-0.4142135623730961
  0
VERTEX
  5
286
  8
DATA
  6
CONTINUOUS
 62
     7
 10
-1.8999999999999999
 20
-75.000000000000014
 30
0.0
  0
SEQEND
  5
287
  8
DATA
  6
CONTINUOUS
 62
     7
  0
ARC
  5
134
  8
DATA
  6
CONTINUOUS
 62
     7
 10
5.2568499999999911
 20
-64.343149999999994
 30
0.0
 40
0.7499967147261363
 50
312.31372076086012
 51
137.68627923913911
  0
ARC
  5
135
  8
DATA
  6
CONTINUOUS
 62
     7
 10
-0.4000000000000005
 20
-70.0
 30
0.0
 40
8.0000028487244972
 50
50.000025323636017
 51
38.999972183539327
  0
TEXT
  5
136
  8
DATA
 62
     7
 10
50.0
 20
-118.86910999999991
 30
0.0
 40
2.4432617187500001
  1
PAE M
 41
0.7
 11
50.0
 21
-116.4258482812499
 31
0.0
 73
     3
  0
TEXT
  5
137
  8
DATA
 62
     7
 10
50.0
 20
-111.61910999999991
 30
0.0
 40
2.4432617187500001
  1
AKG
 41
0.7
 11
50.0
 21
-109.1758482812499
 31
0.0
 73
     3
  0
TEXT
  5
138
  8
DATA
 62
     7
 10
47.499999999999993
 20
-115.096065
 30
0.0
 40
1.6288411458333329
  1
プリアンプ
 41
0.7
 11
47.499999999999993
 21
-113.4672238541666
 31
0.0
 73
     3
  0
LINE
  5
139
  8
DATA
  6
CONTINUOUS
 62
     7
 10
-8.7499999999999911
 20
25.500000001490111
 30
0.0
 11
7.9499999999999931
 21
25.500000001490111
 31
0.0
  0
LINE
  5
13A
  8
DATA
  6
CONTINUOUS
 62
     7
 10
-8.7499999999999911
 20
25.500000001490111
 30
0.0
 11
-8.7499999999999911
 21
20.399999999999991
 31
0.0
  0
LINE
  5
13B
  8
DATA
  6
CONTINUOUS
 62
     7
 10
7.9499999999999931
 20
25.500000001490111
 30
0.0
 11
7.9499999999999931
 21
20.399999999999991
 31
0.0
  0
LINE
  5
13C
  8
DATA
  6
CONTINUOUS
 62
     7
 10
-8.7499999999999911
 20
24.731418553054649
 30
0.0
 11
-0.5606321528772984
 21
25.500000001490111
 31
0.0
  0
LINE
  5
13D
  8
DATA
  6
CONTINUOUS
 62
     7
 10
-8.7499999999999911
 20
23.731418553054649
 30
0.0
 11
7.9499999999999931
 21
25.298732468912249
 31
0.0
  0
LINE
  5
13E
  8
DATA
  6
CONTINUOUS
 62
     7
 10
-8.7499999999999911
 20
22.731418553054649
 30
0.0
 11
7.9499999999999931
 21
24.298732468912249
 31
0.0
  0
LINE
  5
13F
  8
DATA
  6
CONTINUOUS
 62
     7
 10
-8.7499999999999911
 20
21.731418553054649
 30
0.0
 11
7.9499999999999931
 21
23.298732468912249
 31
0.0
  0
LINE
  5
140
  8
DATA
  6
CONTINUOUS
 62
     7
 10
-8.7499999999999911
 20
20.731418553054649
 30
0.0
 11
7.9499999999999931
 21
22.298732468912231
 31
0.0
  0
LINE
  5
141
  8
DATA
  6
CONTINUOUS
 62
     7
 10
-1.626149410134164
 20
20.399999999999991
 30
0.0
 11
7.9499999999999931
 21
21.298732468912249
 31
0.0
  0
LINE
  5
142
  8
DATA
  6
CONTINUOUS
 62
     7
 10
-9.9499999999999993
 20
-16.0
 30
0.0
 11
9.1500000000000004
 21
-16.0
 31
0.0
  0
CIRCLE
  5
143
  8
DATA
  6
CONTINUOUS
 62
     7
 10
-0.4000000000000005
 20
59.999999999999609
 30
0.0
 40
5.6999999999999993
  0
POLYLINE
  5
144
  8
DATA
  6
CONTINUOUS
 62
     7
 66
     1
 10
0.0
 20
0.0
 30
0.0
 70
     1
  0
VERTEX
  5
288
  8
DATA
  6
CONTINUOUS
 62
     7
 10
-3.4000000000000021
 20
-36.000000000000007
 30
0.0
  0
VERTEX
  5
289
  8
DATA
  6
CONTINUOUS
 62
     7
 10
2.599999999999997
 20
-36.000000000000007
 30
0.0
  0
VERTEX
  5
28A
  8
DATA
  6
CONTINUOUS
 62
     7
 10
2.599999999999997
 20
-38.500000000000007
 30
0.0
  0
VERTEX
  5
28B
  8
DATA
  6
CONTINUOUS
 62
     7
 10
-3.4000000000000021
 20
-38.500000000000007
 30
0.0
  0
SEQEND
  5
28C
  8
DATA
  6
CONTINUOUS
 62
     7
  0
ENDSEC
  0
EOF
